ISO-10303-21;
HEADER;
FILE_DESCRIPTION (( 'STEP AP203' ),
    '1' );
FILE_NAME ('Q-QZWP-R4-10-780-M.STEP',
    '2020-12-23T01:22:23',
    ( '' ),
    ( '' ),
    'SwSTEP 2.0',
    'SolidWorks 2020',
    '' );
FILE_SCHEMA (( 'CONFIG_CONTROL_DESIGN' ));
ENDSEC;

DATA;
#1 = DIRECTION ( 'NONE',  ( -1.000000000000000000, -0.000000000000000000, -0.000000000000000000 ) ) ;
#2 = EDGE_CURVE ( 'NONE', #148, #135, #119, .T. ) ;
#3 = AXIS2_PLACEMENT_3D ( 'NONE', #198, #123, #70 ) ;
#4 = DIRECTION ( 'NONE',  ( 0.000000000000000000, 0.000000000000000000, 1.000000000000000000 ) ) ;
#5 = VERTEX_POINT ( 'NONE', #111 ) ;
#6 = DIRECTION ( 'NONE',  ( 0.000000000000000000, 0.000000000000000000, 1.000000000000000000 ) ) ;
#7 = DIRECTION ( 'NONE',  ( -0.000000000000000000, 0.000000000000000000, 1.000000000000000000 ) ) ;
#8 = ORIENTED_EDGE ( 'NONE', *, *, #297, .T. ) ;
#9 = FACE_OUTER_BOUND ( 'NONE', #222, .T. ) ;
#10 = FACE_OUTER_BOUND ( 'NONE', #294, .T. ) ;
#11 = ORIENTED_EDGE ( 'NONE', *, *, #209, .T. ) ;
#12 = DIRECTION ( 'NONE',  ( -1.000000000000000000, -0.000000000000000000, -0.000000000000000000 ) ) ;
#13 = AXIS2_PLACEMENT_3D ( 'NONE', #206, #313, #283 ) ;
#14 = CC_DESIGN_PERSON_AND_ORGANIZATION_ASSIGNMENT ( #116, #146, ( #175 ) ) ;
#15 = PERSON_AND_ORGANIZATION_ROLE ( 'design_supplier' ) ;
#16 = CIRCLE ( 'NONE', #293, 5.000000000000000888 ) ;
#17 = APPROVAL_DATE_TIME ( #144, #324 ) ;
#18 = COORDINATED_UNIVERSAL_TIME_OFFSET ( 8, 0, .AHEAD. ) ;
#19 = COORDINATED_UNIVERSAL_TIME_OFFSET ( 8, 0, .AHEAD. ) ;
#20 = CC_DESIGN_SECURITY_CLASSIFICATION ( #211, ( #186 ) ) ;
#21 = FACE_BOUND ( 'NONE', #189, .T. ) ;
#22 = CC_DESIGN_APPROVAL ( #122, ( #175 ) ) ;
#23 = DIRECTION ( 'NONE',  ( 0.000000000000000000, 0.000000000000000000, -1.000000000000000000 ) ) ;
#24 = EDGE_LOOP ( 'NONE', ( #137, #8 ) ) ;
#25 = ADVANCED_FACE ( 'NONE', ( #57 ), #61, .F. ) ;
#26 = DIRECTION ( 'NONE',  ( -1.000000000000000000, -0.000000000000000000, -0.000000000000000000 ) ) ;
#27 = ORIENTED_EDGE ( 'NONE', *, *, #145, .F. ) ;
#28 = DIRECTION ( 'NONE',  ( -1.000000000000000000, -0.000000000000000000, -0.000000000000000000 ) ) ;
#29 = VECTOR ( 'NONE', #315, 1000.000000000000000 ) ;
#30 = LINE ( 'NONE', #287, #86 ) ;
#31 = ORIENTED_EDGE ( 'NONE', *, *, #202, .F. ) ;
#32 = DIRECTION ( 'NONE',  ( -1.000000000000000000, -0.000000000000000000, -0.000000000000000000 ) ) ;
#33 = ORIENTED_EDGE ( 'NONE', *, *, #270, .F. ) ;
#34 = CC_DESIGN_PERSON_AND_ORGANIZATION_ASSIGNMENT ( #195, #15, ( #186 ) ) ;
#35 = EDGE_CURVE ( 'NONE', #135, #180, #30, .T. ) ;
#36 = CARTESIAN_POINT ( 'NONE',  ( -1.250000000000000222, 0.000000000000000000, 0.000000000000000000 ) ) ;
#37 = ORIENTED_EDGE ( 'NONE', *, *, #328, .T. ) ;
#38 = CYLINDRICAL_SURFACE ( 'NONE', #271, 5.000000000000000888 ) ;
#39 = CALENDAR_DATE ( 2020, 23, 12 ) ;
#40 = APPROVAL_STATUS ( 'not_yet_approved' ) ;
#41 = AXIS2_PLACEMENT_3D ( 'NONE', #246, #90, #298 ) ;
#42 = APPROVAL_ROLE ( '' ) ;
#43 = CALENDAR_DATE ( 2020, 23, 12 ) ;
#44 = AXIS2_PLACEMENT_3D ( 'NONE', #250, #106, #290 ) ;
#45 = CC_DESIGN_PERSON_AND_ORGANIZATION_ASSIGNMENT ( #243, #117, ( #186 ) ) ;
#46 = CARTESIAN_POINT ( 'NONE',  ( 3.000000000000000000, 0.000000000000000000, 5.000000000000001776 ) ) ;
#47 = APPROVAL ( #272, 'UNSPECIFIED' ) ;
#48 = CARTESIAN_POINT ( 'NONE',  ( -1.614212418857619014, 0.000000000000000000, 5.000000000000000888 ) ) ;
#49 =( GEOMETRIC_REPRESENTATION_CONTEXT ( 3 ) GLOBAL_UNCERTAINTY_ASSIGNED_CONTEXT ( ( #182 ) ) GLOBAL_UNIT_ASSIGNED_CONTEXT ( ( #172, #185, #104 ) ) REPRESENTATION_CONTEXT ( 'NONE', 'WORKASPACE' ) );
#50 = CARTESIAN_POINT ( 'NONE',  ( -3.000000000000000000, 0.000000000000000000, 0.000000000000000000 ) ) ;
#51 = ORIENTED_EDGE ( 'NONE', *, *, #255, .T. ) ;
#52 = EDGE_LOOP ( 'NONE', ( #234, #312 ) ) ;
#53 = ORIENTED_EDGE ( 'NONE', *, *, #270, .T. ) ;
#54 = DIRECTION ( 'NONE',  ( 1.000000000000000000, 0.000000000000000000, 0.000000000000000000 ) ) ;
#55 = CARTESIAN_POINT ( 'NONE',  ( -1.250000000000000222, 6.123233995736767268E-16, -5.000000000000000888 ) ) ;
#56 = AXIS2_PLACEMENT_3D ( 'NONE', #188, #257, #7 ) ;
#57 = FACE_OUTER_BOUND ( 'NONE', #228, .T. ) ;
#58 = EDGE_LOOP ( 'NONE', ( #60, #98 ) ) ;
#59 = ORIENTED_EDGE ( 'NONE', *, *, #67, .T. ) ;
#60 = ORIENTED_EDGE ( 'NONE', *, *, #247, .F. ) ;
#61 = CYLINDRICAL_SURFACE ( 'NONE', #249, 5.000000000000000888 ) ;
#62 = VECTOR ( 'NONE', #75, 1000.000000000000000 ) ;
#63 = APPLICATION_PROTOCOL_DEFINITION ( 'international standard', 'config_control_design', 1994, #79 ) ;
#64 = DATE_TIME_ROLE ( 'classification_date' ) ;
#65 = APPROVAL_PERSON_ORGANIZATION ( #268, #122, #214 ) ;
#66 = PERSON_AND_ORGANIZATION_ROLE ( 'design_owner' ) ;
#67 = EDGE_CURVE ( 'NONE', #292, #262, #16, .T. ) ;
#68 = CIRCLE ( 'NONE', #192, 12.69999999999999929 ) ;
#69 = CYLINDRICAL_SURFACE ( 'NONE', #138, 12.69999999999999929 ) ;
#70 = DIRECTION ( 'NONE',  ( -0.000000000000000000, 0.000000000000000000, 1.000000000000000000 ) ) ;
#71 = AXIS2_PLACEMENT_3D ( 'NONE', #126, #102, #207 ) ;
#72 = ORIENTED_EDGE ( 'NONE', *, *, #35, .F. ) ;
#73 = CARTESIAN_POINT ( 'NONE',  ( 1.250000000000000444, 0.000000000000000000, 0.000000000000000000 ) ) ;
#74 = ORIENTED_EDGE ( 'NONE', *, *, #209, .F. ) ;
#75 = DIRECTION ( 'NONE',  ( -1.000000000000000000, -0.000000000000000000, -0.000000000000000000 ) ) ;
#76 = CARTESIAN_POINT ( 'NONE',  ( 3.000000000000000000, 0.000000000000000000, 0.000000000000000000 ) ) ;
#77 = CARTESIAN_POINT ( 'NONE',  ( 3.000000000000000000, 0.000000000000000000, 0.000000000000000000 ) ) ;
#78 = ORIENTED_EDGE ( 'NONE', *, *, #285, .F. ) ;
#79 = APPLICATION_CONTEXT ( 'configuration controlled 3d designs of mechanical parts and assemblies' ) ;
#80 = DIRECTION ( 'NONE',  ( -1.000000000000000000, -0.000000000000000000, -0.000000000000000000 ) ) ;
#81 = LOCAL_TIME ( 9, 22, 23.00000000000000000, #19 ) ;
#82 = DIRECTION ( 'NONE',  ( -1.000000000000000000, -0.000000000000000000, -0.000000000000000000 ) ) ;
#83 = ORIENTED_EDGE ( 'NONE', *, *, #242, .T. ) ;
#84 = ADVANCED_FACE ( 'NONE', ( #10 ), #131, .T. ) ;
#85 = CARTESIAN_POINT ( 'NONE',  ( 3.000000000000000000, 1.555301434917138433E-15, -12.69999999999999929 ) ) ;
#86 = VECTOR ( 'NONE', #134, 1000.000000000000000 ) ;
#87 = MECHANICAL_CONTEXT ( 'NONE', #79, 'mechanical' ) ;
#88 = EDGE_CURVE ( 'NONE', #292, #155, #157, .T. ) ;
#89 = COORDINATED_UNIVERSAL_TIME_OFFSET ( 8, 0, .AHEAD. ) ;
#90 = DIRECTION ( 'NONE',  ( 0.000000000000000000, 0.000000000000000000, 1.000000000000000000 ) ) ;
#91 = CIRCLE ( 'NONE', #124, 12.69999999999999929 ) ;
#92 = COORDINATED_UNIVERSAL_TIME_OFFSET ( 8, 0, .AHEAD. ) ;
#93 = PLANE ( 'NONE',  #335 ) ;
#94 = CARTESIAN_POINT ( 'NONE',  ( -3.000000000000000000, 6.123233995736766282E-16, -5.000000000000000000 ) ) ;
#95 = ORIENTED_EDGE ( 'NONE', *, *, #2, .T. ) ;
#96 = VECTOR ( 'NONE', #156, 1000.000000000000000 ) ;
#97 = DIRECTION ( 'NONE',  ( 0.000000000000000000, 0.000000000000000000, 1.000000000000000000 ) ) ;
#98 = ORIENTED_EDGE ( 'NONE', *, *, #67, .F. ) ;
#99 = AXIS2_PLACEMENT_3D ( 'NONE', #50, #305, #97 ) ;
#100 = DIRECTION ( 'NONE',  ( 0.000000000000000000, 0.000000000000000000, -1.000000000000000000 ) ) ;
#101 = ORIENTED_EDGE ( 'NONE', *, *, #187, .F. ) ;
#102 = DIRECTION ( 'NONE',  ( -1.000000000000000000, -0.000000000000000000, -0.000000000000000000 ) ) ;
#103 = EDGE_LOOP ( 'NONE', ( #33, #95, #108, #101 ) ) ;
#104 =( NAMED_UNIT ( * ) SI_UNIT ( $, .STERADIAN. ) SOLID_ANGLE_UNIT ( ) );
#105 = CYLINDRICAL_SURFACE ( 'NONE', #44, 5.000000000000000888 ) ;
#106 = DIRECTION ( 'NONE',  ( -1.000000000000000000, -0.000000000000000000, -0.000000000000000000 ) ) ;
#107 = DIRECTION ( 'NONE',  ( -1.000000000000000000, -0.000000000000000000, -0.000000000000000000 ) ) ;
#108 = ORIENTED_EDGE ( 'NONE', *, *, #35, .T. ) ;
#109 = CC_DESIGN_DATE_AND_TIME_ASSIGNMENT ( #166, #332, ( #175 ) ) ;
#110 = DESIGN_CONTEXT ( 'detailed design', #212, 'design' ) ;
#111 = CARTESIAN_POINT ( 'NONE',  ( 1.250000000000000444, 6.123233995736766282E-16, -5.000000000000000000 ) ) ;
#112 = PERSON_AND_ORGANIZATION_ROLE ( 'classification_officer' ) ;
#113 = AXIS2_PLACEMENT_3D ( 'NONE', #260, #80, #232 ) ;
#114 = ADVANCED_FACE ( 'NONE', ( #154 ), #38, .F. ) ;
#115 = APPROVAL_STATUS ( 'not_yet_approved' ) ;
#116 = PERSON_AND_ORGANIZATION ( #213, #282 ) ;
#117 = PERSON_AND_ORGANIZATION_ROLE ( 'creator' ) ;
#118 = CC_DESIGN_APPROVAL ( #47, ( #211 ) ) ;
#119 = CIRCLE ( 'NONE', #149, 12.69999999999999929 ) ;
#120 = FACE_OUTER_BOUND ( 'NONE', #52, .T. ) ;
#121 = CARTESIAN_POINT ( 'NONE',  ( -3.000000000000000000, 0.000000000000000000, 0.000000000000000000 ) ) ;
#122 = APPROVAL ( #115, 'UNSPECIFIED' ) ;
#123 = DIRECTION ( 'NONE',  ( -1.000000000000000000, 0.000000000000000000, -0.000000000000000000 ) ) ;
#124 = AXIS2_PLACEMENT_3D ( 'NONE', #171, #278, #333 ) ;
#125 = CARTESIAN_POINT ( 'NONE',  ( -3.000000000000000000, 0.000000000000000000, 12.69999999999999929 ) ) ;
#126 = CARTESIAN_POINT ( 'NONE',  ( -3.000000000000000000, 0.000000000000000000, 0.000000000000000000 ) ) ;
#127 = ORIENTED_EDGE ( 'NONE', *, *, #297, .F. ) ;
#128 = LINE ( 'NONE', #48, #62 ) ;
#129 = CIRCLE ( 'NONE', #71, 5.000000000000000000 ) ;
#130 = DIRECTION ( 'NONE',  ( -1.000000000000000000, -0.000000000000000000, -0.000000000000000000 ) ) ;
#131 = CYLINDRICAL_SURFACE ( 'NONE', #308, 12.69999999999999929 ) ;
#132 = EDGE_LOOP ( 'NONE', ( #303, #281 ) ) ;
#133 = CARTESIAN_POINT ( 'NONE',  ( 3.000000000000000000, 6.123233995736768255E-16, -5.000000000000001776 ) ) ;
#134 = DIRECTION ( 'NONE',  ( -1.000000000000000000, -0.000000000000000000, -0.000000000000000000 ) ) ;
#135 = VERTEX_POINT ( 'NONE', #252 ) ;
#136 = ADVANCED_FACE ( 'NONE', ( #235, #322 ), #140, .F. ) ;
#137 = ORIENTED_EDGE ( 'NONE', *, *, #241, .T. ) ;
#138 = AXIS2_PLACEMENT_3D ( 'NONE', #279, #181, #254 ) ;
#139 = LOCAL_TIME ( 9, 22, 23.00000000000000000, #92 ) ;
#140 = PLANE ( 'NONE',  #56 ) ;
#141 = PRODUCT_RELATED_PRODUCT_CATEGORY ( 'detail', '', ( #190 ) ) ;
#142 = APPROVAL_ROLE ( '' ) ;
#143 = APPROVAL_DATE_TIME ( #244, #122 ) ;
#144 = DATE_AND_TIME ( #239, #81 ) ;
#145 = EDGE_CURVE ( 'NONE', #155, #231, #129, .T. ) ;
#146 = PERSON_AND_ORGANIZATION_ROLE ( 'creator' ) ;
#147 = EDGE_CURVE ( 'NONE', #135, #148, #68, .T. ) ;
#148 = VERTEX_POINT ( 'NONE', #85 ) ;
#149 = AXIS2_PLACEMENT_3D ( 'NONE', #165, #12, #311 ) ;
#150 = CYLINDRICAL_SURFACE ( 'NONE', #245, 5.000000000000000888 ) ;
#151 = ADVANCED_FACE ( 'NONE', ( #295 ), #291, .F. ) ;
#152 = CARTESIAN_POINT ( 'NONE',  ( -1.250000000000000222, 0.000000000000000000, 5.000000000000000888 ) ) ;
#153 = CARTESIAN_POINT ( 'NONE',  ( -3.000000000000000000, 0.000000000000000000, 5.000000000000000000 ) ) ;
#154 = FACE_OUTER_BOUND ( 'NONE', #162, .T. ) ;
#155 = VERTEX_POINT ( 'NONE', #94 ) ;
#156 = DIRECTION ( 'NONE',  ( -1.000000000000000000, -0.000000000000000000, -0.000000000000000000 ) ) ;
#157 = LINE ( 'NONE', #316, #229 ) ;
#158 = ORIENTED_EDGE ( 'NONE', *, *, #88, .T. ) ;
#159 = CIRCLE ( 'NONE', #170, 5.000000000000000000 ) ;
#160 = DIRECTION ( 'NONE',  ( 0.000000000000000000, 0.000000000000000000, 1.000000000000000000 ) ) ;
#161 = CARTESIAN_POINT ( 'NONE',  ( -1.250000000000000222, 5.000000000000000000, 0.000000000000000000 ) ) ;
#162 = EDGE_LOOP ( 'NONE', ( #127, #205, #51, #177 ) ) ;
#163 = SHAPE_DEFINITION_REPRESENTATION ( #323, #226 ) ;
#164 = VERTEX_POINT ( 'NONE', #46 ) ;
#165 = CARTESIAN_POINT ( 'NONE',  ( 3.000000000000000000, 0.000000000000000000, 0.000000000000000000 ) ) ;
#166 = DATE_AND_TIME ( #39, #139 ) ;
#167 = PERSON_AND_ORGANIZATION ( #213, #282 ) ;
#168 = LOCAL_TIME ( 9, 22, 23.00000000000000000, #89 ) ;
#169 = DIRECTION ( 'NONE',  ( 1.000000000000000000, 0.000000000000000000, 0.000000000000000000 ) ) ;
#170 = AXIS2_PLACEMENT_3D ( 'NONE', #73, #130, #6 ) ;
#171 = CARTESIAN_POINT ( 'NONE',  ( -3.000000000000000000, 0.000000000000000000, 0.000000000000000000 ) ) ;
#172 =( LENGTH_UNIT ( ) NAMED_UNIT ( * ) SI_UNIT ( .MILLI., .METRE. ) );
#173 = DIRECTION ( 'NONE',  ( 0.000000000000000000, 0.000000000000000000, 1.000000000000000000 ) ) ;
#174 = EDGE_LOOP ( 'NONE', ( #253, #59, #37, #11 ) ) ;
#175 = PRODUCT_DEFINITION ( 'UNKNOWN', '', #186, #110 ) ;
#176 = APPROVAL_PERSON_ORGANIZATION ( #167, #47, #42 ) ;
#177 = ORIENTED_EDGE ( 'NONE', *, *, #242, .F. ) ;
#178 = CARTESIAN_POINT ( 'NONE',  ( -1.614212418857619014, 6.123233995736767268E-16, -5.000000000000000888 ) ) ;
#179 = DIRECTION ( 'NONE',  ( 0.000000000000000000, 0.000000000000000000, 1.000000000000000000 ) ) ;
#180 = VERTEX_POINT ( 'NONE', #125 ) ;
#181 = DIRECTION ( 'NONE',  ( -1.000000000000000000, -0.000000000000000000, -0.000000000000000000 ) ) ;
#182 = UNCERTAINTY_MEASURE_WITH_UNIT (LENGTH_MEASURE( 1.000000000000000082E-05 ), #172, 'distance_accuracy_value', 'NONE');
#183 = DIRECTION ( 'NONE',  ( 0.000000000000000000, 0.000000000000000000, 1.000000000000000000 ) ) ;
#184 = ORIENTED_EDGE ( 'NONE', *, *, #314, .F. ) ;
#185 =( NAMED_UNIT ( * ) PLANE_ANGLE_UNIT ( ) SI_UNIT ( $, .RADIAN. ) );
#186 = PRODUCT_DEFINITION_FORMATION_WITH_SPECIFIED_SOURCE ( 'ANY', '', #190, .NOT_KNOWN. ) ;
#187 = EDGE_CURVE ( 'NONE', #201, #180, #203, .T. ) ;
#188 = CARTESIAN_POINT ( 'NONE',  ( 3.000000000000000000, 12.69999999999999929, 0.000000000000000000 ) ) ;
#189 = EDGE_LOOP ( 'NONE', ( #74, #27 ) ) ;
#190 = PRODUCT ( 'Q-QZWP-R4-10-780-M', 'Q-QZWP-R4-10-780-M', '', ( #87 ) ) ;
#191 = ADVANCED_FACE ( 'NONE', ( #199 ), #150, .F. ) ;
#192 = AXIS2_PLACEMENT_3D ( 'NONE', #77, #227, #183 ) ;
#193 = MANIFOLD_SOLID_BREP ( 'Ðý×', #219 ) ;
#194 = DATE_AND_TIME ( #327, #330 ) ;
#195 = PERSON_AND_ORGANIZATION ( #213, #282 ) ;
#196 = CIRCLE ( 'NONE', #113, 5.000000000000000000 ) ;
#197 = CARTESIAN_POINT ( 'NONE',  ( -3.000000000000000000, 5.000000000000000000, 0.000000000000000000 ) ) ;
#198 = CARTESIAN_POINT ( 'NONE',  ( 1.250000000000000222, 5.000000000000000000, 0.000000000000000000 ) ) ;
#199 = FACE_OUTER_BOUND ( 'NONE', #174, .T. ) ;
#200 = DIRECTION ( 'NONE',  ( -1.000000000000000000, -0.000000000000000000, -0.000000000000000000 ) ) ;
#201 = VERTEX_POINT ( 'NONE', #280 ) ;
#202 = EDGE_CURVE ( 'NONE', #180, #201, #91, .T. ) ;
#203 = CIRCLE ( 'NONE', #240, 12.69999999999999929 ) ;
#204 = EDGE_LOOP ( 'NONE', ( #78, #264 ) ) ;
#205 = ORIENTED_EDGE ( 'NONE', *, *, #314, .T. ) ;
#206 = CARTESIAN_POINT ( 'NONE',  ( 3.000000000000000000, 0.000000000000000000, 0.000000000000000000 ) ) ;
#207 = DIRECTION ( 'NONE',  ( 0.000000000000000000, 0.000000000000000000, 1.000000000000000000 ) ) ;
#208 = ORIENTED_EDGE ( 'NONE', *, *, #247, .T. ) ;
#209 = EDGE_CURVE ( 'NONE', #231, #155, #259, .T. ) ;
#210 = CARTESIAN_POINT ( 'NONE',  ( -1.614212418857619014, 0.000000000000000000, 0.000000000000000000 ) ) ;
#211 = SECURITY_CLASSIFICATION ( '', '', #326 ) ;
#212 = APPLICATION_CONTEXT ( 'configuration controlled 3d designs of mechanical parts and assemblies' ) ;
#213 = PERSON ( 'UNSPECIFIED', 'UNSPECIFIED', 'UNSPECIFIED', ('UNSPECIFIED'), ('UNSPECIFIED'), ('UNSPECIFIED') ) ;
#214 = APPROVAL_ROLE ( '' ) ;
#215 = COORDINATED_UNIVERSAL_TIME_OFFSET ( 8, 0, .AHEAD. ) ;
#216 = CALENDAR_DATE ( 2020, 23, 12 ) ;
#217 = PERSON_AND_ORGANIZATION ( #213, #282 ) ;
#218 = LOCAL_TIME ( 9, 22, 23.00000000000000000, #18 ) ;
#219 = CLOSED_SHELL ( 'NONE', ( #84, #265, #114, #321, #25, #191, #237, #238, #136, #151 ) ) ;
#220 = CC_DESIGN_PERSON_AND_ORGANIZATION_ASSIGNMENT ( #217, #112, ( #211 ) ) ;
#221 = FACE_OUTER_BOUND ( 'NONE', #103, .T. ) ;
#222 = EDGE_LOOP ( 'NONE', ( #208, #158, #288, #306 ) ) ;
#223 = DIRECTION ( 'NONE',  ( 1.000000000000000000, 0.000000000000000000, 0.000000000000000000 ) ) ;
#224 = CARTESIAN_POINT ( 'NONE',  ( -1.614212418857619014, 0.000000000000000000, 5.000000000000000888 ) ) ;
#225 = DIRECTION ( 'NONE',  ( 0.000000000000000000, 0.000000000000000000, -1.000000000000000000 ) ) ;
#226 = ADVANCED_BREP_SHAPE_REPRESENTATION ( 'Q-QZWP-R4-10-780-M', ( #193, #41 ), #49 ) ;
#227 = DIRECTION ( 'NONE',  ( -1.000000000000000000, -0.000000000000000000, -0.000000000000000000 ) ) ;
#228 = EDGE_LOOP ( 'NONE', ( #184, #309, #83, #284 ) ) ;
#229 = VECTOR ( 'NONE', #26, 1000.000000000000000 ) ;
#230 = CARTESIAN_POINT ( 'NONE',  ( -1.614212418857619014, 1.555301434917138433E-15, -12.69999999999999929 ) ) ;
#231 = VERTEX_POINT ( 'NONE', #153 ) ;
#232 = DIRECTION ( 'NONE',  ( 0.000000000000000000, 0.000000000000000000, 1.000000000000000000 ) ) ;
#233 = DIRECTION ( 'NONE',  ( 1.000000000000000000, 0.000000000000000000, 0.000000000000000000 ) ) ;
#234 = ORIENTED_EDGE ( 'NONE', *, *, #202, .T. ) ;
#235 = FACE_OUTER_BOUND ( 'NONE', #132, .T. ) ;
#236 = CIRCLE ( 'NONE', #304, 5.000000000000001776 ) ;
#237 = ADVANCED_FACE ( 'NONE', ( #21, #120 ), #93, .F. ) ;
#238 = ADVANCED_FACE ( 'NONE', ( #221 ), #69, .T. ) ;
#239 = CALENDAR_DATE ( 2020, 23, 12 ) ;
#240 = AXIS2_PLACEMENT_3D ( 'NONE', #121, #1, #251 ) ;
#241 = EDGE_CURVE ( 'NONE', #164, #319, #296, .T. ) ;
#242 = EDGE_CURVE ( 'NONE', #164, #317, #128, .T. ) ;
#243 = PERSON_AND_ORGANIZATION ( #213, #282 ) ;
#244 = DATE_AND_TIME ( #43, #168 ) ;
#245 = AXIS2_PLACEMENT_3D ( 'NONE', #248, #307, #173 ) ;
#246 = CARTESIAN_POINT ( 'NONE',  ( 0.000000000000000000, 0.000000000000000000, 0.000000000000000000 ) ) ;
#247 = EDGE_CURVE ( 'NONE', #262, #292, #275, .T. ) ;
#248 = CARTESIAN_POINT ( 'NONE',  ( -1.614212418857619014, 0.000000000000000000, 0.000000000000000000 ) ) ;
#249 = AXIS2_PLACEMENT_3D ( 'NONE', #263, #32, #179 ) ;
#250 = CARTESIAN_POINT ( 'NONE',  ( -1.614212418857619014, 0.000000000000000000, 0.000000000000000000 ) ) ;
#251 = DIRECTION ( 'NONE',  ( 0.000000000000000000, 0.000000000000000000, 1.000000000000000000 ) ) ;
#252 = CARTESIAN_POINT ( 'NONE',  ( 3.000000000000000000, 0.000000000000000000, 12.69999999999999929 ) ) ;
#253 = ORIENTED_EDGE ( 'NONE', *, *, #88, .F. ) ;
#254 = DIRECTION ( 'NONE',  ( 0.000000000000000000, 0.000000000000000000, 1.000000000000000000 ) ) ;
#255 = EDGE_CURVE ( 'NONE', #5, #317, #196, .T. ) ;
#256 = LINE ( 'NONE', #178, #29 ) ;
#257 = DIRECTION ( 'NONE',  ( -1.000000000000000000, 0.000000000000000000, -0.000000000000000000 ) ) ;
#258 = ORIENTED_EDGE ( 'NONE', *, *, #147, .T. ) ;
#259 = CIRCLE ( 'NONE', #99, 5.000000000000000000 ) ;
#260 = CARTESIAN_POINT ( 'NONE',  ( 1.250000000000000444, 0.000000000000000000, 0.000000000000000000 ) ) ;
#261 = CARTESIAN_POINT ( 'NONE',  ( 1.250000000000000444, 0.000000000000000000, 5.000000000000000000 ) ) ;
#262 = VERTEX_POINT ( 'NONE', #152 ) ;
#263 = CARTESIAN_POINT ( 'NONE',  ( -1.614212418857619014, 0.000000000000000000, 0.000000000000000000 ) ) ;
#264 = ORIENTED_EDGE ( 'NONE', *, *, #255, .F. ) ;
#265 = ADVANCED_FACE ( 'NONE', ( #9 ), #105, .F. ) ;
#266 = DIRECTION ( 'NONE',  ( 0.000000000000000000, 0.000000000000000000, 1.000000000000000000 ) ) ;
#267 = AXIS2_PLACEMENT_3D ( 'NONE', #161, #223, #23 ) ;
#268 = PERSON_AND_ORGANIZATION ( #213, #282 ) ;
#269 = PERSON_AND_ORGANIZATION ( #213, #282 ) ;
#270 = EDGE_CURVE ( 'NONE', #148, #201, #310, .T. ) ;
#271 = AXIS2_PLACEMENT_3D ( 'NONE', #210, #82, #4 ) ;
#272 = APPROVAL_STATUS ( 'not_yet_approved' ) ;
#273 = APPLICATION_PROTOCOL_DEFINITION ( 'international standard', 'config_control_design', 1994, #212 ) ;
#274 = CC_DESIGN_DATE_AND_TIME_ASSIGNMENT ( #194, #64, ( #211 ) ) ;
#275 = CIRCLE ( 'NONE', #325, 5.000000000000000888 ) ;
#276 = DIRECTION ( 'NONE',  ( 0.000000000000000000, 0.000000000000000000, -1.000000000000000000 ) ) ;
#277 = LINE ( 'NONE', #224, #300 ) ;
#278 = DIRECTION ( 'NONE',  ( -1.000000000000000000, -0.000000000000000000, -0.000000000000000000 ) ) ;
#279 = CARTESIAN_POINT ( 'NONE',  ( -1.614212418857619014, 0.000000000000000000, 0.000000000000000000 ) ) ;
#280 = CARTESIAN_POINT ( 'NONE',  ( -3.000000000000000000, 1.555301434917138433E-15, -12.69999999999999929 ) ) ;
#281 = ORIENTED_EDGE ( 'NONE', *, *, #2, .F. ) ;
#282 = ORGANIZATION ( 'UNSPECIFIED', 'UNSPECIFIED', '' ) ;
#283 = DIRECTION ( 'NONE',  ( 0.000000000000000000, 0.000000000000000000, 1.000000000000000000 ) ) ;
#284 = ORIENTED_EDGE ( 'NONE', *, *, #285, .T. ) ;
#285 = EDGE_CURVE ( 'NONE', #317, #5, #159, .T. ) ;
#286 = FACE_OUTER_BOUND ( 'NONE', #204, .T. ) ;
#287 = CARTESIAN_POINT ( 'NONE',  ( -1.614212418857619014, 0.000000000000000000, 12.69999999999999929 ) ) ;
#288 = ORIENTED_EDGE ( 'NONE', *, *, #145, .T. ) ;
#289 = CARTESIAN_POINT ( 'NONE',  ( -1.250000000000000222, 0.000000000000000000, 0.000000000000000000 ) ) ;
#290 = DIRECTION ( 'NONE',  ( 0.000000000000000000, 0.000000000000000000, 1.000000000000000000 ) ) ;
#291 = PLANE ( 'NONE',  #267 ) ;
#292 = VERTEX_POINT ( 'NONE', #55 ) ;
#293 = AXIS2_PLACEMENT_3D ( 'NONE', #36, #233, #100 ) ;
#294 = EDGE_LOOP ( 'NONE', ( #258, #53, #31, #72 ) ) ;
#295 = FACE_OUTER_BOUND ( 'NONE', #58, .T. ) ;
#296 = CIRCLE ( 'NONE', #13, 5.000000000000001776 ) ;
#297 = EDGE_CURVE ( 'NONE', #319, #164, #236, .T. ) ;
#298 = DIRECTION ( 'NONE',  ( 1.000000000000000000, 0.000000000000000000, 0.000000000000000000 ) ) ;
#299 = PERSON_AND_ORGANIZATION ( #213, #282 ) ;
#300 = VECTOR ( 'NONE', #200, 1000.000000000000000 ) ;
#301 = APPROVAL_DATE_TIME ( #329, #47 ) ;
#302 = CC_DESIGN_PERSON_AND_ORGANIZATION_ASSIGNMENT ( #269, #66, ( #190 ) ) ;
#303 = ORIENTED_EDGE ( 'NONE', *, *, #147, .F. ) ;
#304 = AXIS2_PLACEMENT_3D ( 'NONE', #76, #28, #160 ) ;
#305 = DIRECTION ( 'NONE',  ( -1.000000000000000000, -0.000000000000000000, -0.000000000000000000 ) ) ;
#306 = ORIENTED_EDGE ( 'NONE', *, *, #328, .F. ) ;
#307 = DIRECTION ( 'NONE',  ( -1.000000000000000000, -0.000000000000000000, -0.000000000000000000 ) ) ;
#308 = AXIS2_PLACEMENT_3D ( 'NONE', #318, #107, #266 ) ;
#309 = ORIENTED_EDGE ( 'NONE', *, *, #241, .F. ) ;
#310 = LINE ( 'NONE', #230, #96 ) ;
#311 = DIRECTION ( 'NONE',  ( 0.000000000000000000, 0.000000000000000000, 1.000000000000000000 ) ) ;
#312 = ORIENTED_EDGE ( 'NONE', *, *, #187, .T. ) ;
#313 = DIRECTION ( 'NONE',  ( -1.000000000000000000, -0.000000000000000000, -0.000000000000000000 ) ) ;
#314 = EDGE_CURVE ( 'NONE', #319, #5, #256, .T. ) ;
#315 = DIRECTION ( 'NONE',  ( -1.000000000000000000, -0.000000000000000000, -0.000000000000000000 ) ) ;
#316 = CARTESIAN_POINT ( 'NONE',  ( -1.614212418857619014, 6.123233995736767268E-16, -5.000000000000000888 ) ) ;
#317 = VERTEX_POINT ( 'NONE', #261 ) ;
#318 = CARTESIAN_POINT ( 'NONE',  ( -1.614212418857619014, 0.000000000000000000, 0.000000000000000000 ) ) ;
#319 = VERTEX_POINT ( 'NONE', #133 ) ;
#320 = CC_DESIGN_APPROVAL ( #324, ( #186 ) ) ;
#321 = ADVANCED_FACE ( 'NONE', ( #286 ), #334, .F. ) ;
#322 = FACE_BOUND ( 'NONE', #24, .T. ) ;
#323 = PRODUCT_DEFINITION_SHAPE ( 'NONE', 'NONE',  #175 ) ;
#324 = APPROVAL ( #40, 'UNSPECIFIED' ) ;
#325 = AXIS2_PLACEMENT_3D ( 'NONE', #289, #54, #225 ) ;
#326 = SECURITY_CLASSIFICATION_LEVEL ( 'unclassified' ) ;
#327 = CALENDAR_DATE ( 2020, 23, 12 ) ;
#328 = EDGE_CURVE ( 'NONE', #262, #231, #277, .T. ) ;
#329 = DATE_AND_TIME ( #216, #218 ) ;
#330 = LOCAL_TIME ( 9, 22, 23.00000000000000000, #215 ) ;
#331 = APPROVAL_PERSON_ORGANIZATION ( #299, #324, #142 ) ;
#332 = DATE_TIME_ROLE ( 'creation_date' ) ;
#333 = DIRECTION ( 'NONE',  ( 0.000000000000000000, 0.000000000000000000, 1.000000000000000000 ) ) ;
#334 = PLANE ( 'NONE',  #3 ) ;
#335 = AXIS2_PLACEMENT_3D ( 'NONE', #197, #169, #276 ) ;
ENDSEC;
END-ISO-10303-21;
